Скачать mp3: Бетховен - Лунная соната

  • Бетховен - Лунная соната
  • Л.В. Бетховен - Лунная Соната
  • Бетховен - Лунная соната. Ремикс
  • Бетховен - Лунная Соната [dubstep]
  • Бетховен - Лунная Соната Dub Step
  • Soundtrac - Бетховен - Лунная соната
  • Бетховен - Лунная соната Бетховена
  • Бетховен - Лунная соната на гитаре
  • Людвиг Ван Бетховен - Лунная соната
  • Бетховен - Лунная соната(транс версия)
  • Л.В. Бетховен - Лунная соната (Dubstep mix)
  • БЕТХОВЕН - Лунная соната (Соната для форт)
  • ЗОЛОТАЯ КЛАССИКА - Бетховен - Лунная Соната
  • Людвиг ван Бетховен - Лунная соната(Ремикс)
  • Бетховен - Лунная соната /хард-рок обработка
  • 409 - Л.Бетховен - Лунная соната - Исп.Джеймс Ласт
  • Классическая музыка.бетховен - Лунная соната
  • Людвиг Ван Бетховен - Луная соната
  • Классическая музыка - Бетховен - Лунная соната соч
  • Людвиг ван Бетховен - Лунная соната. Морской бриз
  • Людвиг Ван Бетховен - Лунная соната ( исп. Эмиль Гилельс )
  • Классическая музыка - Бетховен - Лунная соната соч. 27-2
  • DJ KASKAD 163 - Бетховен - Лунная соната (DJ KASKAD remix)
  • Бетховен - Лунная Соната(Dj Morgan Free Man) - DIRtY lOON
  • Спокойная классика - Людвиг Ван Бетховен - Лунная Соната
  • Людвиг ван Бетховен - Лунная соната Часть 3 (Piano rock)
  • Бетховен - Лунная Соната (клавиши, электро-гитара и ударные)
  • Л. В. Бетховен-Лунная соната - Лунная соната в стилевой транс-обработке
  • Классика в современных обработк Рок.обработка - Бетховен - Лунная соната
  • Л.Бетховен Лунная соната 3 часть - Музыка 5-го Луча / Луч Истины и Исцеления
  • 107 БЕТХОВЕН - ЛУННАЯ СОНАТА.MP3 - Лучшая классическая музыка - Классическая музыка
  • Pergamum - Classiс metal(-Бах "Токката Ре минор" -Бетховен "Лунная Соната" -Вивальди "Времена года" -Бетховен "Симфония №5")
  • Современная классика - Бетховен - Луная соната (в обработке)
  • Бетховен - Лунная Соната ''Martirosyan Gegham'' RABIZ, DJ HOUSE, CLASSIC, RAP, Hip Hop, ART HANGIST, RUSAKAN, BLATNOY, Dance, Pop, Trance, Progre
  • Бетховен - Лунная соната - послушайте её те, кому одиноко, грустно, плохо, , и те кому просто хочеться послушать что-нибудь красивое) P.S.только дослушайте до к
  • Классика - Людвиг Ван Бетховен - Лунная Соната Я не понимаю, как можно прожить жизнь и не разу не послушать это великое произведение... оно никогда не устареет! оно вечно!&#33
  • Бетховен - Лунная Соната
  • Бетховен - Лунная соната
  • Бетховен - Лунная Соната
  • Людвиг ван Бетховен - Лунная соната

Тут отображается текст песни

pp
| | | | | | | |
E-|------------------------|------------------------|
B-|-----1-----1-----1-----1|-----1-----1-----1-----1|
G-|---2-----2-----2-----2--|---2-----2-----2-----2--|
D-|-2-----2-----2-----2----|-2-----2-----2-----2----|
A-|-0----------------------|------------------------|
E-|------------------------|-3----------------------|

3 2 1 3
4
~~~~~~~~~~~~~~~~~~~~~~~~~~~~~~~~~~~~~~~~~~~~~~~~~~~~~
I... III..
| | | | | | | |
E-|------------------------|------------------------|
B-|-----1-----1-----3-----3|-----3-----1-----0-----0|
G-|---2-----2-----3-----3--|---1-----2-----2-----1--|
D-|-3-----3-----3-----3----|-2-----2-----2-----0----|
A-|-------------5----------|------------------------|
E-|-1----------------------|-0-----------0----------|

3 2 1 1 2 1 4 2 3 1 1
1 3
~~~~~~~~~~~~~~~~~~~~~~~~~~~~~~~~~~~~~~~~~~~~~~~~~~~~~~
II
| | | | | | | |
E-|-------------------0----0|--0-----------------0----0|
B-|-----------1-----1-----1-|------3-----3-----3-----3-|
G-|-2---2---2-----2-----2---|----4-----4-----4-----4---|
D-|-2-2---2-----2-----2-----|--------2-----2-----2-----|
A-|-0-----------------------|--------------------------|
E-|-------------------------|--0-----------------------|

3 1 3 2 1
2
~~~~~~~~~~~~~~~~~~~~~~~~~~~~~~~~~~~~~~~~~~~~~~~~~~~~~~~~
| | | | | | | |
E-|-0-----------1----------|-0-----------------3----|
B-|-----1-----1-----3-----3|-----1-----1-3---0-----0|
G-|---2-----2-----2-----2--|---0-----0-----0-----0--|
D-|-2-----2-----0-----3----|-2-----2-----3-----3----|
A-|-0----------------------|------------------------|
E-|------------------------|-3-----------3----------|

2 3 1 1 2 4 3 2 1 3 3
3 2 2
1
~~~~~~~~~~~~~~~~~~~~~~~~~~~~~~~~~~~~~~~~~~~~~~~~~~~~~~~
V........................
| | | | | | | |
E-|------------------------|--------------------------|
B-|-1---1-----1-----1-----1|--------------------------|
G-|---0-----0-----0-----0--|-----5-----5-----5-8---5h8|
D-|-2-----2-----2-----2----|---5-----5-----5-----5----|
A-|-3----------------------|-6-----6-----6-----6------|
E-|------------------------|-8------------------------|

1 2 1 1 4 4
2 4 2
3
~~~~~~~~~~~~~~~~~~~~~~~~~~~~~~~~~~~~~~~~~~~~~~~~~~~~~~~
IV.....................................I.....
| | | | | | | |
E-|-------------------------|------------------------|
B-|-4-----------------4----4|-4---------------1-3---1|
G-|-----6-----6-----6-----6-|-----5-----5---2-----2--|
D-|---5-----5-----5-----5---|---6-----6---1-----0----|
A-|-------6-----6-----6-----|-6-----6----------------|
E-|-6-----------------------|-4-----3-----2----------|

1 2 4 1 3 1 3 1 4 2 1
3 3 1 2
1
~~~~~~~~~~~~~~~~~~~~~~~~~~~~~~~~~~~~~~~~~~~~~~~~~~~~~~~
III............ III........
| | | | | | | |
E-|------------------------|------------------------|
B-|-3-----------4-----1----|-3-----------3----------|
G-|-----3-----3---0-2---0-2|-----3-----3-----2-----2|
D-|---5-----5---1-----1----|---5-----5-----4-----4--|
A-|-5-----5-----3----------|-5-----5-----5-----5----|
E-|-3----------------------|------------------------|

1 4 1 4 2 2 3 1 4 1 2 3 1
3 1 1 3 4
1 3
~~~~~~~~