Скачать mp3: КиШ - Утопленник

  • КиШ - Утопленник
  • КиШ (КняZz) - Утопленник
  • КиШ - Утопленник (Cover)
  • LemonT - Утопленник (КиШ)
  • КиШ - Утопленник(рингтнон)
  • КиШ - (Жаль, нет ружья!) - Утопленник
  • Король и шут (КиШ) - Утопленник
  • КиШ Жаль, нет ружья - Утопленник
  • Царёв_Experience - Утопленник (КиШ Cover)
  • Аниме клип - КИШ-Король и шут-Утопленник-Крутой учител.wmv
  • КиШ - Утопленник
  • Король и Шут (КиШ) - Утопленник
  • Король и Шут (КиШ) - Утопленник
  • Король и Шут (КиШ) - Утопленник

Тут отображается текст песни

Как вспомню, так кидает в дрожь,
Но расскажу вам все как было,
Устал от ваших кислых рож

Intro:
A
3|-7-------------------------|
4|----10>9>7--5-7--9-7-------| > x 4
5|---------------------9-7-9-|/
Solo 1:
A
3|-7-------------------------|
4|----10>9>7--5-7--9-7-------|
5|---------------------9-7-9-|
C
3|-7-------------------------|
4|----10>9>7--5-7--9-7-------|
5|---------------------9-7-9-|
D
3|-7-------------------------|
4|----10>9>7--5-7--9-7-------|
5|---------------------9-7-9-|
E
3|-7------7-------9--9-9-9-9-7--------|
4|---10-7----10-7--------------10>9>7-|

Куплет 1

A
Однажды, набравшись я вылез в окно,
C G A
На реку угрюмо взглянул
D C
Вода была красная, буд-то вино,
F#
У берега кто-то тонул.
Я мог бы, наверно, бедняге помочь,
Но ноги пошои не туда.
Вдруг крик оборвался и сгинул он прочь
И стала спокойной вода!

D
И с тех пор монящий взгляд его
A G F# G F#
Приследовал меня,
D
Стал я чаще пить вино
F# G F#
И проклянал тот день я-а!

Припев:

A D A G C H
Жуткая ночь хохотала потоками ливня,
E
A D 5|-7-6-7-8--7-8-10--9-10-12--11-12-|
В шуме воды мне послышались чьи-то шаги.
A D A G C H
4|-7-7-7-7-6----7-10-10-10-10-9-10-7-7-7-7-6-7-5-5-5-5-4-5--
Я мертвеца у себя на пороге увидел,
A D E D C H
3|----2-2-2-2-1----2--5-5-5-5--4----5----7-6-7-8--7-8-10--9-10-12--11-12-|
И голос ужасный его прокричал: "ПОМОГИ!"

Куплет 2

Об пол разлетелась бутылка вина,
Ужасным казался мне гость,
И боль как огнем мне плечо обожгла,
И палцы вонзились мне в кость.
В прохладной реке поднималась вода
Затапливая острова.
Я в миг протрезвел и помчался туда,
Где рыбатская лодка была

Теченье лодку уносило
Я зацепится чудом смог
За борт держась, собравшись силой,
Залес в нее, на днище ле-ог

Припев.
Соло 1.
Соло 2 (нема) A C D E
Куплет 3

Всю ночь проволялся без памяти я,
Очнулся с больной головой.
Причалила к берегу лодка моя,
Не помню, что было со мной.
В кормяне лежала бутылка вина,
Но я удивлятся не стал,
А просто открыл, начал пить из горла
И вдруг над собой увидал

Как тучи небо закрывают
И не видно им конца,
Раскаты грома вызывают
Из речки тело мертвеца-а.

Припев.
E D C H A
3|7-6-7-8--7-8-10--9-10-12--11-12-15--|