Скачать mp3: Кино - Когда Твоя Девушка Больна

  • Кино - Когда твоя девушка больна
  • Кино - Когда твоя девушка больна
  • 06 - КИНО - Когда Твоя Девушка Больна
  • Цой Кино - Когда твоя девушка больна
  • Кино - Когда твоя девушка больна" (cover)
  • Кино - Когда твоя девушка больна (Cover)
  • Кино - Когда твоя девушка больна (кавер)
  • Кино - Когда твоя девушка больна (ремикс)
  • Цой [ .kino ] Кино - Когда твоя девушка больна
  • Кино - Когда твоя девушка больна (акустика)
  • В. Цой и гр. "Кино" - Когда твоя девушка больна
  • Кино - Когда твоя девушка больна на гитаре
  • В. Цой и гр. Кино - Когда Твоя Девушка Больна
  • Кино - Когда твоя девушка больна (Виктор Цой)
  • ШаХаШ & Кино - Когда твоя девушка больна
  • Кино - Когда твоя девушка больна (инструментал)
  • Кино - Когда твоя девушка больна (reggae cover)
  • Кино - Когда твоя девушка больна (Docentoff HD)
  • Виктор Цой и гр. "Кино" - Когда твоя девушка больна
  • Виктор Цой и гр.Кино - Когда твоя девушка больна
  • Виктор Цой и группа Кино - КОГДА ТВОЯ ДЕВУШКА БОЛЬНА
  • Кино - Когда твоя девушка больна (Олег Пацерковский cover)
  • Кино;Виктор Цой и группа «Кино - Когда твоя девушка больна
  • КИНО - Когда твоя девушка больна(Легенды Русского Рока 2002г)
  • Антропов М. (солист), Антропов А. (гитара) - Кино - Когда твоя девушка больна (cover)
  • The smiths - Girlfriend in a coma (acoustic) (Кино - когда твоя девушка больна)
  • В исполнении Альбертика - Виктор Цой и гр.Кино- Когда твоя девушка больна
  • С.А.С. - Когда твоя печень больна (пародия на песню Кино - "Когда твоя девушка больна")
  • Кино - Когда твоя девушка больна
  • Кино - Когда Твоя Девушка Больна
  • Кино - Когда твоя девушка больна
  • Кино - Когда твоя девушка больна
  • Кино - Когда твоя девушка больна
  • Кино - Когда твоя девушка больна
  • Кино - Когда твоя девушка больна
  • Кино - Когда твоя девушка больна (Cover)
  • КИНО - Когда твоя девушка больна (Cover)
  • Кино - Когда твоя девушка больна (кавер)
  • Кино - Когда твоя девушка больна (Docentoff HD)
  • Виктор Цой и группа Кино - Когда твоя девушка больна

Тут отображается текст песни

День как день, только ты почему-то грустишь.
G Em C D
И вокруг все поют, только ты один молчишь.
G Em C D
Потерял аппетит и не хочешь сходить в кино.
G Em C D
Ты идешь в магазин, чтобы купить вино.

C D
Солнце светит и растет трава,
G Em
Но тебе она не нужна.
C D
Все не так и все не то,

G Em |
Когда твоя девушка больна. |
C D |
М-м-м-м. | > 2 раза.

G | D G | D G | D | G | D
Когда больна.

Ты идешь в магазин, головою поник,
Как будто иссяк чистый горный родник.
Она где-то лежит, ест мед и пьет аспирин,
И вот ты идешь на вечеринку один.

Солнце светит и растет трава,
Но тебе она не нужна.
Все не так и все не то,

Когда твоя девушка больна. |
На вечеринку - один, | > 2 раза.

Когда твоя девушка больна. |
М-м-м-м. | > 2 раза.

Когда твоя девушка больна.

Проигрыш:

С | C | D | D

G | G | Em | Em

С | C | D | D

G | D G | D G | D | G | D

Кода:

C D G Em
e|----------------------------------------------------------------|
H|----------------------------------------------------------------|
G|-------------0--------------------------------------------------|
D|-----------------4---2---0--------------------------------------|
A|-----3---3-------------------3---2---------0-2------------------|
E|-----------------------------------------------3----------------|

C D G Em
e|----------------------------------------------------------------|
H|----------------------------------------------------------------|
G|----------------------------------------------------------------|
D|-------------2---0-----------------------------2----------------|
A|-----3---3-----------3---2---0-------------0-2------------------|
E|---------------------------------3------------------------------|

C D G Em
e|----------------------------------------------------------------|
H|----------------------------------------------------------------|
G|-------------0---------------------------------0----------------|
D|-----------------4---2---0-------0-----------0------------------|
A|-----3---3-------------------3-------------2--------------------|
E|----------------