Скачать mp3: Ленинград - Таня

  • Ленинград - Таня
  • 122 - Ленинград - Таня
  • Ленинград - Лёля и Таня
  • Ленинград - Таня, Надя, ЛюсЯ)))
  • Ленинград - Таня (ДК Горбунова )
  • ♫ ленинград - Таня от меня ушла
  • Ленинград - [Пуля + диск 1 2001] - Таня
  • Ленинград - Таня / Leningrad - Tanya
  • Таня Савичева - Ленинград блокада
  • Ленинград - Таня (п.у. И.Вдовина 2001 - "Пуля")
  • Ковчег - Таня, Танюша (РНП) /"Слушай, Ленинград
  • Ленинград - С Новым годом тебя Таня
  • Ленинград - Таня(самая грусная песня на свете)))))))
  • Ленинград - Таня От Меня Ушла (для мурашки)
  • MC Slesar & MC Dvornick vs Ленинград - Таня
  • Таня Буланова-Мы же с тобой Ленинградки - Посвящается всем женщинам, пережившим блокаду Ленинграда
  • Эдита Пьеха. на основе дневника маленькой девочки в блокадном Ленинграде - Баллада о Савичевой Тане [«Савичевы умерли все. Осталась одна Таня».]
  • 13 августа 1987 года - Кинчев, Самойлов, Гаркуша - Концерт в библиотеке - Ленинград - Папа Тани
  • Ленинград - Лёля и Таня

Тут отображается текст песни

Gm Cm (2 раза)
1||-3--3-3-3-3-3-3-3-3--3--3----3-3-3-3-3-3-3-3-3--3--3--||
2||-3--3-3-3-3-3-3-3-3--4--3----4-4-4-4-4-4-4-4-4--3--4--||
3||-3--3-3-3-3-3-3-3-3--3--3----5-5-5-5-5-5-5-5-5--5--5--||
4||-5--5-5-5-5-5-5-5-5--5--5----5-5-5-5-5-5-5-5-5--5--5--||
5||-5--5-5-5-5-5-5-5-5--5--5----3-3-3-3-3-3-3-3-3--3--3--||
6||-3--3-3-3-3-3-3-3-3--3--3----3-3-3-3-3-3-3-3-3--3--3--||

Gm Cm (2 раза)
1||-3--3-3-3-3-3--3--3----3-3-3-3-3--3-3-3----||
2||-3--3-3-3-3-6--4--3----4-4-4-4-6--4-4-4----||
3||-3--3-3-3-3-3--3--3----5-5-5-5-3--3-3-3----||
4||-5--5-5-5-5-3--3--5----5-5-5-5-5--5-5-5----||
5||-5--5-5-5-5-5--5--5----3-3-3-3-3--3-3-3----||
6||-3--3-3-3-3-3--3--3----3-3-3-3-3--3-3-3----||

(в проигрышах и припевах Gm и Cm
лучше играть с вариациями как в Intro)

Cm
Отцвели в саду тюльпаны,
Fm
От меня ушла Татьяна.
Cm
Буду с мужиками я ходить

Припев:
Fm Cm
На Фонтанку водку пить

проигрыш: Cm Fm

и снова как в начале припева:
Fm Cm
На Фонтанку водку пить!
С мужиками водку пить!

Куплет.
Вечером я сяду да у окошка,
Только во дворе ебутся кошки.
Это весна пришла,
Припев.
Таня от меня ушла.
проигрыш: Cm Fm

и т.д.
Заливал беду я пивом,
Но тоска не проходила.
Только печаль пришла,
Таня от меня ушла.

Таня от меня ушла!
Таня от меня ушла!