Скачать mp3: Сплин - Двое не спят

  • Сплин - Двое не спят♪
  • Сплин - Двое не спят
  • Сплин - Двое не спят♥
  • сплин... - Двое не спят
  • "Сплин" - Двое не спят
  • Сплин - Двое не спят ( =) )
  • Сплин - Двое не спят (1990)
  • Олег - Двое не спят (Сплин)
  • Сплин - Двое не спят ( кавер )
  • Минус (Сплин) - Двое не спят
  • Cezar - Двое не спят (Сплин)
  • Сплин - Двое не спят(кавер)
  • Томаш - Двое не спят (СПЛИН)
  • Сплин - Двое не спят-кавер
  • Сплин - Двое не спят кавер
  • СПЛИН мой напев - Двое не спят
  • Сплин - А.Васильев - Двое Не Спят
  • А.Васильев (Сплин) - Двое не спят
  • Сплин(Foxy) - Двое не спят(cover)
  • Сплин - Двое не спят (Eugeny cover)
  • Unknown - Двое не спят (Сплин cover)
  • Сплин Cover by PVD - Двое не спят
  • Сплин - Двое не спят ( Nick Grey Cover)
  • mouse.4d - Сплин - двое не спят - YouTube
  • Сплин - Двое не спят (мой инструментал)
  • Двое не спят - Сплин (кавер под гитару)
  • Софья Коливерда - Двое не спят (Сплин cover)
  • Александр Васильев (Сплин) - Двое не спят (1990)
  • Василий Тименков - Двое не спят (Сплин cover)
  • Александр Васильев Сплин - Двое не спят (1990)
  • Саша Васильев "Сплин" - Двое не спят (2004, Черновики)
  • Анастасия Васильева - Двое не спят (Сплин cover)
  • Александра Музычук - Двое не спят ( cover на Сплин)
  • Андрей Карпушенко - Двое не спят (Сплин Cover, 2015)
  • BlackSpace - Двое не спят/Небо в алмазах (Сплин cover)
  • MC VIT [ г.Сумы ] - Двое не спят ( Кавер на песню Сплина )
  • Сплин - Двое не спят
  • Сплин - Двое не спят
  • Сплин - Двое не спят
  • Сплин - Двое не спят

Тут отображается текст песни

Куплет:

Am Em/D Am
E|-------------------------------------------0-------------|
H|-------0h1------------3------------0h1-----------0-------|
G|-----2-------2------0-----0------2-------2-----2-----2---|
D|---2-------2------2-----2------2-------2-----2-----2-----|
A|-0--------------2------------0---------------------------|
E|---------------------------------------------------------|

C G C A7
E|---------------------------------------------------------|
H|-------0h1------------3------------0h1------------2------|
G|-----0-------0------0-----0------0-------0------0-----0--|
D|---2-------2------0-----0------2-------2------2-----2----|
A|-3--------------2------------3--------------0------------|
E|---------------------------------------------------------|

Dm G C Em/D Am
E|-------0h1------------3----------------------------------|
H|-----3-------3------3-----3----------------------0h1-----|
G|---2-------2------0-----0--------0------0------2-------2-|
D|-0-----------------------------2------2------2-------2---|
A|----------------2------------3------2------0-------------|
E|---------------------------------------------------------|

Dm E Am A7
E|-------0h1------------0----------------------------------|
H|-----3-------3------0-----0--------0h1-----------2-------|
G|---2-------2------1-----1--------2-------2-----0-----0---|
D|-0-----------------------------2-------2-----2-----2-----|
A|----------------2------------0-------------0-------------|
E|---------------------------------------------------------|

Dm G C Em/D Am
E|-------0h1------------3----------------------------------|
H|-----3-------3------3-----3----------------------0h1-----|
G|---2-------2------0-----0--------0------0------2-------2-|
D|-0-----------------------------2------2------2-------2---|
A|----------------2------------3------2------0-------------|
E|---------------------------------------------------------|

Dm E Am (везде, кроме 1 куплета)
E|-------0h1------------0--------------------0-|---------------------|
H|-----3-------3------0-----0--------0h1-------|-----0---------------|
G|---2-------2------1-----1--------2-------2---|---2-----2-----------|
D|-0-----------------------------2-------2-----|-2-----2-------------|
A|----------------2------------0---------------|---------------------|
E|---------------------------------------------|---------------------|

Am Em/D Am
Лестница здесь, девять шагов до заветной двери,
C G C A7
А за дверями в русская печь и гость на постой.
Dm G C Em/D Am
Двое не спят, двое глотают колеса любви,
Dm E Am A7
Им хорошо, станем ли мы нарушать их покой?
Dm G C Em/D Am
Двое не спят, двое глотают колеса любви,
Dm E Am A7
Им хорошо, станем ли мы нарушать их покой?..

Час на часах, ночь, как змея поползла по земле,
У фонаря смерть наклонилась над новой строкой.
А двое не спят, двое сидят у любви на игле,
Им хорошо, станем ли мы нарушать их покой?
А двое не спят, двое сидят у любви на игле,
Им хорошо, станем ли мы нару