Скачать mp3: Чайф - Я рисую на окне

  • Чайф - Я рисую на окне
  • Гр.ЧайФ - Я рисую на окне
  • Сара - Я рисую на окне /ЧАЙФ
  • ЧайФ - Я рисую на окне (Шкала)
  • Чайф - Шкала (Я рисую на окне)
  • Ваниш - Я рисую на окне-чайф
  • Чайф - 12 - Я рисую на окне (1999)
  • Группа ЧАЙФ - Я РИСУЮ НА ОКНЕ
  • Кикин Н (Чайф) - Я рисую на окне
  • Чайф - Я рисую на окне(acoustic)
  • AlexBG - Чайф(2005) - Я рисую на окне
  • На диктофон - Я рисую на окне (Чайф)
  • ЧайФ - Я рисую на окне...кавер под гитару..:)
  • Юрий Ворошилов - Я рисую на окне (Чайф)
  • Слова песни Чайф - Я Рисую На Окне 1
  • Чайф: Я рисую на окне - Минск 12 мая 2010
  • Чайф - Я рисую на окне (Аккорды на гитаре Am)
  • N.E.V.A. - Я рисую на окне (cover ТРИБЬЮТ Чайф 3.0)
  • Чайф - Я рисую на окне ("вечерний ургант" live)
  • Чайф - Я рисую на окне, концерт в Мегаполисе, г Липецк
  • Чайф - Я рисую на окне. Версия 2 - Cover Золотухин Андрей
  • Чайф - Я Рисую На Окне (I'm Painting On The Window, cover)
  • Чайф, Мария Гойя и Эльмира Калимуллина - Я рисую на окне (шоу "Голос")
  • Чайф, Мария Гойя и Эльмира Калимуллина - Я рисую на окне (шоу Голос)
  • Мария Гойя, Эльмира Камимуллина и группа"Чайф - Я рисую на окне
  • ЧайФ - Я рисую на окне (Шкала) [Live @ Спортивно-концертный комплекс "Олимпийский"; Москва, Россия, г.]
  • IV. Grojimo gitara ir dainavimo bandymai (Tatjana Iljina) 2015.08.17 (Чайф - Я рисую на окне)
  • Чайф - Я рисую на окне (ЭТО ПОСЛЕДНЯЯ ПЕСНЯ В ЭФИРЕ ИГРАВШАЯ В 6.55, ПОСЛЕ ЧЕГО ВЫКЛЮЧИЛИ РЕТРАНСЛЯЦИЮ "НАШЕ РАДИО" В ЙОШКАР-ОЛЕ)
  • Чайф - Я рисую на окне (Очень нравятся твои "песчаные бури"видимо что-то созвучное им есть и во мне, "Панк с эрокезом", "парень скрывающий лицо" - это проклятье и благость то, что он видеть не хочет или то, что он видит; великолепны)
  • Чайф - Я рисую на окне....Я рисую любовь, на помутневшем окне. И эта сказка про нас: лишь о тебе и обо мне. Я не устану кричать, что нужен мне только ты, И все о тебе мечты… Каждый день без тебя, как без воды я живу. Тебя я вижу во сне, но я хочу наяву
  • Чайф - Я рисую на окне
  • ЧайФ - Я рисую на окне
  • ЧайФ - Я рисую на окне
  • Чайф - Я рисую на окне
  • ЧайФ - Я рисую на окне
  • Чайф - Я рисую на окне
  • Чайф - Я рисую на окне
  • Чайф - Я рисую на окне
  • Чайф - Я рисую на окне
  • ЧайФ - Я рисую на окне (Шкала)

Тут отображается текст песни

2 раза

G A D H7
E|-------3-------3-------0-------0-2-------2-----------2---3-2-|
B|---3-------3-------2-------2-3-------3-------3---0-----------|
G|-----0---0---0---0---2---2---------2---2---2---2---2---2-----|
D|---------------------------------0-------0-------------------|
A|-----------2-------0-----------------------------2-----------|
E|---3---------------------------------------------------------|

Em A D D9 D G A A9A
E|-----0---3-2-0-------0-------2-0-2-------0-2-----------------|
B|-0-------------0-2-------2-3---------3---------3---3-2-0-2---|
G|---0---0-----------2---2-----------2---2-----2---2-----------|
D|---------------------------------0---------0-----------------|
A|-----------------0-----------------------------------0-0-0---|
E|-0-------------------------------------------------3---------|

соло Шахрина

D D9 D G A D(outtro)
E|-2-3-5-10--10-9--7-7--5-2|
B|-3-3-5-10--10-10-7-7--5-3|
G|-------------------------|
D|-------------------------|
A|-------------------------|
E|-------------------------|

D H7 Em
Я рисую на окне
A D D9 D
Глаз твоих косые стрелы.
D H7 Em
Я играю на трубе
A D D9 D
Водосточной неумело.
G A
Я тебе построю Кижи
D H7
Взяв от спичек коробок.
Em A
Я летаю над Парижем
D
Задевая потолок.
D D9 D G A

Я рисую на окне,
Я смотрю в пустые стены,
Оставляя на песке
Совершенные поэмы.
Я раскрашиваю грезы,
Я летаю в облаках.
О боже, может,
Может просто я дурак.
Отчего от счастья слезы,
Слезы горя, горя море
Счастья тихий ручеек,
Убегающий в песок

Я рисую на окне,
Сам с собою громко споря.
Поиск истины в вине,
Истина чего-то стоит.
Спит кукушка на часах.
Может поздно,
Может рано.
Нет у времени стоп крана
Нету крыльев на руках
Где-то там засох в пустыне
Счастья тихий ручеек.
Я один в своей квартире
А над небом потолок.

D9 :0320xx
H7 :20212x
G :330023
A :022200
A9 :002200
Em :0002200
D :2320xx