Скачать mp3: System Of A Down - B.Y.O.B

  • System Of A Down - B.Y.O.B
  • System of a down - B.Y.O.B.
  • 02 System Of A Down - B.Y.O.B
  • System Of a Down - B.Y.O.B. Vox
  • System Of A Down - B.Y.O.B. (02 - 11)
  • System of a down - B.Y.O.B ( vocal )
  • System Of A Down - B.Y.O.B. (8 bit)
  • System of A Down - B.Y.O.B. (8-bit)
  • System Of A Down - B.Y.O.B. Lyrics
  • System of a Down - B.Y.O.B Karaoke
  • System Of A Down - B.y.o.b. (acapella)
  • System of a Down - B.Y.O.B. (HQ / Lyrics)
  • System Of A Down - B.Y.O.B. on guitar
  • System Of A Down - B.Y.O.B. (Uncensored)
  • System of a Down - B.Y.O.B (Ikki Remix)
  • System of a Down - B.Y.O.B.(gitar cover)
  • System Of A Down - B.Y.O.B. (RoboRoc Remix)
  • System of a down - B.Y.O.B. (Creator remix)
  • System of a Down - B.Y.O.B (Sandwich remix)
  • System of a Down - B.Y.O.B. (Johnfaustus rmx)
  • System Of A Down - B.Y.O.B. (Explicit Version)
  • System Of A Down - B.Y.O.B. Live @ Astoria 2005
  • System Of A Down - B.Y.O.B + [Intro] Soldier Side
  • System Of A Down - B.Y.O.B. (UNCENSORED - HQ 1080p)
  • System of a Down - B.Y.O.B. [Bass Track - Bass Only]
  • System of a Down - B.Y.O.B. (Guitar Instrumental)
  • System Of A Down - B.Y.O.B. live (HD/DVD Quality)
  • HQ - System Of A Down - B.Y.O.B - (Instrumental/Karaoke)
  • System of a down - B.Y.O.B (guitar&drum) guitar by me
  • System Of A Down - B.Y.O.B. [Lyrics + Traduction Française]
  • System Of A Down - B.Y.O.B ( SUICIDE REMIX ) FREE DOWNLOAD
  • System Of A Down - B.Y.O.B ( - London, Brixton Academy, England)
  • System Of A Down - B.Y.O.B. (Smiechu mix & mastering)
  • SYSTEM OF A DOWN - B.Y.O.B - DRUM COVER BY MEYTAL COHEN
  • [Guitar Hero World Tour] System Of A Down - B.Y.O.B (Expert)
  • System Of A Down - B.Y.O.B. понравился трек заходи zdes
  • System Of A Down - B.Y.O.B (Teknizm Dark 3am Rmx) Free DL
  • System Of A Down - B.Y.O.B
  • System of a down - B.Y.O.B
  • System of a down - B.Y.O.B (IKKI remix)

Тут отображается текст песни

Intro
Q=155
N.C.
4/4
Gtr I
S S S S S S S S S S S S S S S S S S S S S S S S S S S S S S S S
|---------------------------------||------------------------------------||
|---------------------------------||o----------------------------------o||
|---------------------------------||------------------------------------||
|-7p0-0-0-0-0-0-0-7p0-0-8p0-0-7p0-||--7p0-0-0-0-0-0-0-7p0-0-8p0-0-7p0---||
|---------------------------------||o----------------------------------o||
|---------------------------------||------------------------------------||

S S S S S S S S S S S S S S S S S S S S S S S S S S S S S S S S
|---------------------------------||-----------------------------------||
|---------------------------------||o---------------------------------o||
|---------------------------------||-----------------------------------||
|-7p0-0-8p0-0-7p0-7p0-0-8p0-0-7p0-||--7p0-0-8p0-0-7p0-7p0-0-8p0-0-7p0--||
|---------------------------------||o---------------------------------o||
|---------------------------------||-----------------------------------||

N.C. E5 F5 G5
S S S S S S S S S S S S S S S S S S S S S S S S E. E. E
|---------------------------------|----------------------------|
|---------------------------------|----------------------------|
|---------------------------------|----------------------------|
|---------------------------------|-----------------9--10--12--|
|---------------------------------|-----------------7---8--10--|
|-0-0-0-8-0-0-7-8-0-0-0-8-0-0-7-8-|-0-0-0-8-0-0-7-8------------|

N.C. G5 F5 E5
S S S S S S S S S S S S S S S S S S S S S S S S E. E. E
|---------------------------------|----------------------------|
|---------------------------------|----------------------------|
|---------------------------------|----------------------------|
|---------------------------------|-----------------12--10--9--|
|---------------------------------|-----------------10---8--7--|
|-0-0-0-8-0-0-7-8-0-0-0-8-0-0-7-8-|-0-0-0-8-0-0-7-8------------|

N.C. E5 F5 G5
S S S S S S S S S S S S S S S S S S S S S S S S E. E. E
|---------------------------------|----------------------------|
|---------------------------------|----------------------------|
|---------------------------------|----------------------------|
|---------------------------------|-----------------9--10--12--|
|---------------------------------|-----------------7---8--10--|
|-0-0-0-8-0-0-7-8-0-0-0-8-0-0-7-8-|-0-0-0-8-0-0-7-8------------|

N.C. G5 F5 E5 N.C.
S S S S S S S S S S S S S S S S S S S S S S S S E. E. E W
|---------------------------------|---------------------------|------|
|---------------------------------|---------------------------|------|
|---------------------------------|---------------------------|------|
|---------------------------------|-----------------12--10--9-|------|
|---------------------------------|-----------------10---8--7-|------|
|-0-0-0-8-0-0-7-8-0-0-0-8-0-0-7-8-|-0-0-0-8-0-0-7-8-----------|------|

Verse
Slower Q=105
N.C. F5
PM----------------------------------|
|-------3-------| |-------3-------|
S S S S S S S S S S S S S S S S S S e E
||-------------------------------------------|
||o------------------------------------------|
||-------------------------------------------|
||----------------------------------------10-|
||o----------------------------------------8-|
||--7-0-0-8-0-0-7-0-0-8-0-0-7-0-0-8-0-0-7----|

N.C. G5 F5 E5
PM--------------------|
|----------3----------|
S S S S S S S S S S S S Q E E
|------------------------------------||
|-----------------------------------o||
|----